  0
SECTION
  2
HEADER
  9
$ACADVER
  1
AC1015
  9
$ACADMAINTVER
 70
     6
  9
$DWGCODEPAGE
  3
ANSI_1254
  9
$INSBASE
 10
0.0
 20
0.0
 30
0.0
  9
$EXTMIN
 10
0.0
 20
0.0
 30
0.0
  9
$EXTMAX
 10
279.4
 20
215.9
 30
0.0
  9
$LIMMIN
 10
0.0
 20
0.0
  9
$LIMMAX
 10
279.4
 20
215.9
  9
$ORTHOMODE
 70
     0
  9
$REGENMODE
 70
     1
  9
$FILLMODE
 70
     1
  9
$QTEXTMODE
 70
     0
  9
$MIRRTEXT
 70
     1
  9
$LTSCALE
 40
1.0
  9
$ATTMODE
 70
     1
  9
$TEXTSIZE
 40
3.5
  9
$TRACEWID
 40
1.0
  9
$TEXTSTYLE
  7
Standard
  9
$CLAYER
  8
0
  9
$CELTYPE
  6
ByLayer
  9
$CECOLOR
 62
   256
  9
$CELTSCALE
 40
1.0
  9
$DISPSILH
 70
     0
  9
$DIMSCALE
 40
1.0
  9
$DIMASZ
 40
3.5
  9
$DIMEXO
 40
1.0
  9
$DIMDLI
 40
3.75
  9
$DIMRND
 40
0.0
  9
$DIMDLE
 40
0.0
  9
$DIMEXE
 40
1.0
  9
$DIMTP
 40
0.0
  9
$DIMTM
 40
0.0
  9
$DIMTXT
 40
3.5
  9
$DIMCEN
 40
2.5
  9
$DIMTSZ
 40
0.0
  9
$DIMTOL
 70
     0
  9
$DIMLIM
 70
     0
  9
$DIMTIH
 70
     1
  9
$DIMTOH
 70
     1
  9
$DIMSE1
 70
     0
  9
$DIMSE2
 70
     0
  9
$DIMTAD
 70
     1
  9
$DIMZIN
 70
     0
  9
$DIMBLK
  1

  9
$DIMASO
 70
     1
  9
$DIMSHO
 70
     1
  9
$DIMPOST
  1

  9
$DIMAPOST
  1

  9
$DIMALT
 70
     0
  9
$DIMALTD
 70
     3
  9
$DIMALTF
 40
0.0393700787
  9
$DIMLFAC
 40
1.0
  9
$DIMTOFL
 70
     1
  9
$DIMTVP
 40
0.0
  9
$DIMTIX
 70
     0
  9
$DIMSOXD
 70
     0
  9
$DIMSAH
 70
     0
  9
$DIMBLK1
  1

  9
$DIMBLK2
  1

  9
$DIMSTYLE
  2
ISO-25
  9
$DIMCLRD
 70
     0
  9
$DIMCLRE
 70
     0
  9
$DIMCLRT
 70
     0
  9
$DIMTFAC
 40
1.0
  9
$DIMGAP
 40
1.524
  9
$DIMJUST
 70
     0
  9
$DIMSD1
 70
     0
  9
$DIMSD2
 70
     0
  9
$DIMTOLJ
 70
     0
  9
$DIMTZIN
 70
     0
  9
$DIMALTZ
 70
     0
  9
$DIMALTTZ
 70
     0
  9
$DIMUPT
 70
     0
  9
$DIMDEC
 70
     2
  9
$DIMTDEC
 70
     2
  9
$DIMALTU
 70
     2
  9
$DIMALTTD
 70
     3
  9
$DIMTXSTY
  7
Standard
  9
$DIMAUNIT
 70
     0
  9
$DIMADEC
 70
     2
  9
$DIMALTRND
 40
0.0
  9
$DIMAZIN
 70
     0
  9
$DIMDSEP
 70
    44
  9
$DIMATFIT
 70
     3
  9
$DIMFRAC
 70
     0
  9
$DIMLDRBLK
  1

  9
$DIMLUNIT
 70
     2
  9
$DIMLWD
 70
    -2
  9
$DIMLWE
 70
    -2
  9
$DIMTMOVE
 70
     0
  9
$LUNITS
 70
     2
  9
$LUPREC
 70
     2
  9
$SKETCHINC
 40
1.0
  9
$FILLETRAD
 40
10.0
  9
$AUNITS
 70
     0
  9
$AUPREC
 70
     2
  9
$MENU
  1
.
  9
$ELEVATION
 40
0.0
  9
$PELEVATION
 40
0.0
  9
$THICKNESS
 40
0.0
  9
$LIMCHECK
 70
     0
  9
$CHAMFERA
 40
0.0
  9
$CHAMFERB
 40
0.0
  9
$CHAMFERC
 40
0.0
  9
$CHAMFERD
 40
0.0
  9
$SKPOLY
 70
     0
  9
$TDCREATE
 40
2458985.699437153
  9
$TDUCREATE
 40
2458985.574437153
  9
$TDUPDATE
 40
2458985.699437396
  9
$TDUUPDATE
 40
2458985.574437396
  9
$TDINDWG
 40
0.0000000116
  9
$TDUSRTIMER
 40
0.0000000116
  9
$USRTIMER
 70
     1
  9
$ANGBASE
 50
0.0
  9
$ANGDIR
 70
     0
  9
$PDMODE
 70
     0
  9
$PDSIZE
 40
-1.0
  9
$PLINEWID
 40
0.0
  9
$SPLFRAME
 70
     0
  9
$SPLINETYPE
 70
     6
  9
$SPLINESEGS
 70
     8
  9
$HANDSEED
  5
F1
  9
$SURFTAB1
 70
     6
  9
$SURFTAB2
 70
     6
  9
$SURFTYPE
 70
     6
  9
$SURFU
 70
     6
  9
$SURFV
 70
     6
  9
$UCSBASE
  2

  9
$UCSNAME
  2

  9
$UCSORG
 10
0.0
 20
0.0
 30
0.0
  9
$UCSXDIR
 10
1.0
 20
0.0
 30
0.0
  9
$UCSYDIR
 10
0.0
 20
1.0
 30
0.0
  9
$UCSORTHOREF
  2

  9
$UCSORTHOVIEW
 70
     0
  9
$UCSORGTOP
 10
0.0
 20
0.0
 30
0.0
  9
$UCSORGBOTTOM
 10
0.0
 20
0.0
 30
0.0
  9
$UCSORGLEFT
 10
0.0
 20
0.0
 30
0.0
  9
$UCSORGRIGHT
 10
0.0
 20
0.0
 30
0.0
  9
$UCSORGFRONT
 10
0.0
 20
0.0
 30
0.0
  9
$UCSORGBACK
 10
0.0
 20
0.0
 30
0.0
  9
$PUCSBASE
  2

  9
$PUCSNAME
  2

  9
$PUCSORG
 10
0.0
 20
0.0
 30
0.0
  9
$PUCSXDIR
 10
1.0
 20
0.0
 30
0.0
  9
$PUCSYDIR
 10
0.0
 20
1.0
 30
0.0
  9
$PUCSORTHOREF
  2

  9
$PUCSORTHOVIEW
 70
     0
  9
$PUCSORGTOP
 10
0.0
 20
0.0
 30
0.0
  9
$PUCSORGBOTTOM
 10
0.0
 20
0.0
 30
0.0
  9
$PUCSORGLEFT
 10
0.0
 20
0.0
 30
0.0
  9
$PUCSORGRIGHT
 10
0.0
 20
0.0
 30
0.0
  9
$PUCSORGFRONT
 10
0.0
 20
0.0
 30
0.0
  9
$PUCSORGBACK
 10
0.0
 20
0.0
 30
0.0
  9
$USERI1
 70
     0
  9
$USERI2
 70
     0
  9
$USERI3
 70
     0
  9
$USERI4
 70
     0
  9
$USERI5
 70
     0
  9
$USERR1
 40
0.0
  9
$USERR2
 40
0.0
  9
$USERR3
 40
0.0
  9
$USERR4
 40
0.0
  9
$USERR5
 40
0.0
  9
$WORLDVIEW
 70
     1
  9
$SHADEDGE
 70
     3
  9
$SHADEDIF
 70
    70
  9
$TILEMODE
 70
     1
  9
$MAXACTVP
 70
    64
  9
$PINSBASE
 10
0.0
 20
0.0
 30
0.0
  9
$PLIMCHECK
 70
     0
  9
$PEXTMIN
 10
1.0000000000E+20
 20
1.0000000000E+20
 30
1.0000000000E+20
  9
$PEXTMAX
 10
-1.0000000000E+20
 20
-1.0000000000E+20
 30
-1.0000000000E+20
  9
$PLIMMIN
 10
0.0
 20
0.0
  9
$PLIMMAX
 10
420.0
 20
297.0
  9
$UNITMODE
 70
     0
  9
$VISRETAIN
 70
     1
  9
$PLINEGEN
 70
     0
  9
$PSLTSCALE
 70
     1
  9
$TREEDEPTH
 70
  3020
  9
$CMLSTYLE
  2
Standard
  9
$CMLJUST
 70
     0
  9
$CMLSCALE
 40
20.0
  9
$PROXYGRAPHICS
 70
     1
  9
$MEASUREMENT
 70
     1
  9
$CELWEIGHT
370
    -1
  9
$ENDCAPS
280
     0
  9
$JOINSTYLE
280
     0
  9
$LWDISPLAY
290
     1
  9
$INSUNITS
 70
     4
  9
$HYPERLINKBASE
  1

  9
$STYLESHEET
  1

  9
$XEDIT
290
     1
  9
$CEPSNTYPE
380
     0
  9
$PSTYLEMODE
290
     1
  9
$FINGERPRINTGUID
  2
{da3a5dc1-ec67-4ef7-ae87-f4482111a901}
  9
$VERSIONGUID
  2
{FAEB1C32-E019-11D5-929B-00C0DF256EC4}
  9
$EXTNAMES
290
     1
  9
$PSVPSCALE
 40
0.0
  9
$OLESTARTUP
290
     0
  0
ENDSEC
  0
SECTION
  2
CLASSES
  0
CLASS
  1
ACDBDICTIONARYWDFLT
  2
AcDbDictionaryWithDefault
  3
ObjectDBX Classes
 90
        0
280
     0
281
     0
  0
CLASS
  1
VISUALSTYLE
  2
AcDbVisualStyle
  3
ObjectDBX Classes
 90
     4095
280
     0
281
     0
  0
CLASS
  1
MATERIAL
  2
AcDbMaterial
  3
ObjectDBX Classes
 90
     1153
280
     0
281
     0
  0
CLASS
  1
SCALE
  2
AcDbScale
  3
ObjectDBX Classes
 90
     1153
280
     0
281
     0
  0
CLASS
  1
TABLESTYLE
  2
AcDbTableStyle
  3
ObjectDBX Classes
 90
     4095
280
     0
281
     0
  0
CLASS
  1
MLEADERSTYLE
  2
AcDbMLeaderStyle
  3
ACDB_MLEADERSTYLE_CLASS
 90
     4095
280
     0
281
     0
  0
CLASS
  1
SUN
  2
AcDbSun
  3
SCENEOE
 90
     1153
280
     0
281
     0
  0
CLASS
  1
ACDBPLACEHOLDER
  2
AcDbPlaceHolder
  3
ObjectDBX Classes
 90
        0
280
     0
281
     0
  0
CLASS
  1
LAYOUT
  2
AcDbLayout
  3
ObjectDBX Classes
 90
        0
280
     0
281
     0
  0
ENDSEC
  0
SECTION
  2
TABLES
  0
TABLE
  2
VPORT
  5
8
330
0
100
AcDbSymbolTable
 70
     1
  0
VPORT
  5
29
330
8
100
AcDbSymbolTableRecord
100
AcDbViewportTableRecord
  2
*Active
 70
     0
 10
0.0
 20
0.0
 11
1.0
 21
1.0
 12
139.7
 22
107.95
 13
0.0
 23
0.0
 14
10.0
 24
10.0
 15
10.0
 25
10.0
 16
0.0
 26
0.0
 36
1.0
 17
0.0
 27
0.0
 37
0.0
 40
215.9
 41
1.2941176471
 42
50.0
 43
0.0
 44
0.0
 50
0.0
 51
0.0
 71
     0
 72
  2000
 73
     1
 74
     3
 75
     0
 76
     0
 77
     0
 78
     0
281
     0
 65
     1
110
0.0
120
0.0
130
0.0
111
1.0
121
0.0
131
0.0
112
0.0
122
1.0
132
0.0
 79
     0
146
0.0
  0
ENDTAB
  0
TABLE
  2
LTYPE
  5
5
330
0
100
AcDbSymbolTable
 70
     6
  0
LTYPE
  5
14
330
5
100
AcDbSymbolTableRecord
100
AcDbLinetypeTableRecord
  2
ByBlock
 70
     0
  3

 72
    65
 73
     0
 40
0.0
  0
LTYPE
  5
15
330
5
100
AcDbSymbolTableRecord
100
AcDbLinetypeTableRecord
  2
ByLayer
 70
     0
  3

 72
    65
 73
     0
 40
0.0
  0
LTYPE
  5
16
330
5
100
AcDbSymbolTableRecord
100
AcDbLinetypeTableRecord
  2
Continuous
 70
     0
  3
Solid line
 72
    65
 73
     0
 40
0.0
  0
LTYPE
  5
6E
330
5
100
AcDbSymbolTableRecord
100
AcDbLinetypeTableRecord
  2
HIDDEN
 70
     0
  3
Hidden __ __ __ __ __ __ __ __ __ __ __ __ __ __
 72
    65
 73
     2
 40
1.905
 49
1.27
 74
     0
 49
-0.635
 74
     0
  0
LTYPE
  5
6F
330
5
100
AcDbSymbolTableRecord
100
AcDbLinetypeTableRecord
  2
PHANTOM
 70
     0
  3
Phantom ______  __  __  ______  __  __  ______
 72
    65
 73
     6
 40
12.7
 49
6.35
 74
     0
 49
-1.27
 74
     0
 49
1.27
 74
     0
 49
-1.27
 74
     0
 49
1.27
 74
     0
 49
-1.27
 74
     0
  0
LTYPE
  5
70
330
5
100
AcDbSymbolTableRecord
100
AcDbLinetypeTableRecord
  2
CENTER
 70
     0
  3
Center ____ _ ____ _ ____ _ ____ _ ____ _ ____
 72
    65
 73
     4
 40
10.16
 49
6.35
 74
     0
 49
-1.27
 74
     0
 49
1.27
 74
     0
 49
-1.27
 74
     0
  0
LTYPE
  5
71
330
5
100
AcDbSymbolTableRecord
100
AcDbLinetypeTableRecord
  2
CENTERX2
 70
     0
  3
Center (2x) ________  __  ________  __  _____
 72
    65
 73
     4
 40
20.32
 49
12.7
 74
     0
 49
-2.54
 74
     0
 49
2.54
 74
     0
 49
-2.54
 74
     0
  0
LTYPE
  5
72
330
5
100
AcDbSymbolTableRecord
100
AcDbLinetypeTableRecord
  2
DOT2
 70
     0
  3
Dot (.5x) ........................................
 72
    65
 73
     2
 40
0.635
 49
0.0
 74
     0
 49
-0.635
 74
     0
  0
ENDTAB
  0
TABLE
  2
LAYER
  5
2
330
0
100
AcDbSymbolTable
 70
    17
  0
LAYER
  5
10
330
2
100
AcDbSymbolTableRecord
100
AcDbLayerTableRecord
  2
0
 70
     0
 62
     7
  6
Continuous
370
    -3
390
F
  0
LAYER
  5
73
330
2
100
AcDbSymbolTableRecord
100
AcDbLayerTableRecord
  2
FORMAT
 70
     0
 62
     7
  6
Continuous
370
    -3
390
F
  0
LAYER
  5
74
330
2
100
AcDbSymbolTableRecord
100
AcDbLayerTableRecord
  2
YARDIMCI_GEOMETRI
 70
     0
 62
    -6
  6
Continuous
290
     0
370
    -3
390
F
  0
LAYER
  5
75
330
2
100
AcDbSymbolTableRecord
100
AcDbLayerTableRecord
  2
SAYFA_CERCEVESI
 70
     0
 62
     7
  6
Continuous
370
    25
390
F
  0
LAYER
  5
76
330
2
100
AcDbSymbolTableRecord
100
AcDbLayerTableRecord
  2
ANTET
 70
     0
 62
     7
  6
Continuous
370
    -3
390
F
  0
LAYER
  5
77
330
2
100
AcDbSymbolTableRecord
100
AcDbLayerTableRecord
  2
OLCU
 70
     0
 62
   150
  6
Continuous
370
    -3
390
F
  0
LAYER
  5
78
330
2
100
AcDbSymbolTableRecord
100
AcDbLayerTableRecord
  2
METIN
 70
     0
 62
    96
  6
Continuous
370
    -3
390
F
  0
LAYER
  5
79
330
2
100
AcDbSymbolTableRecord
100
AcDbLayerTableRecord
  2
BALON
 70
     0
 62
     5
  6
Continuous
370
    -3
390
F
  0
LAYER
  5
7A
330
2
100
AcDbSymbolTableRecord
100
AcDbLayerTableRecord
  2
VURGU
 70
     0
 62
     7
  6
Continuous
370
    -3
390
F
  0
LAYER
  5
7B
330
2
100
AcDbSymbolTableRecord
100
AcDbLayerTableRecord
  2
SILIK
 70
     0
 62
     7
  6
Continuous
370
    -3
390
F
  0
LAYER
  5
7C
330
2
100
AcDbSymbolTableRecord
100
AcDbLayerTableRecord
  2
MODEL
 70
     0
 62
     7
  6
Continuous
370
    -3
390
F
  0
LAYER
  5
7D
330
2
100
AcDbSymbolTableRecord
100
AcDbLayerTableRecord
  2
DETAYLANDıRMA
 70
     0
 62
   190
  6
Continuous
370
    -3
390
F
  0
LAYER
  5
7E
330
2
100
AcDbSymbolTableRecord
100
AcDbLayerTableRecord
  2
TOLERANS
 70
     0
 62
   230
  6
Continuous
370
    -3
390
F
  0
LAYER
  5
7F
330
2
100
AcDbSymbolTableRecord
100
AcDbLayerTableRecord
  2
MERKEZ_CIZGILERI
 70
     0
 62
    30
  6
Continuous
370
    -3
390
F
  0
LAYER
  5
80
330
2
100
AcDbSymbolTableRecord
100
AcDbLayerTableRecord
  2
KESIT-DETAY_CIZGILERI
 70
     0
 62
     7
  6
Continuous
370
    -3
390
F
  0
LAYER
  5
81
330
2
100
AcDbSymbolTableRecord
100
AcDbLayerTableRecord
  2
\U+041E\U+0421\U+0415\U+0412\U+042B\U+0415
 70
     0
 62
     7
  6
Continuous
370
    -3
390
F
  0
LAYER
  5
82
330
2
100
AcDbSymbolTableRecord
100
AcDbLayerTableRecord
  2
\U+0412\U+041E\U+0414\U+042F\U+041D\U+042B\U+0415_\U+0417\U+041D\U+0410\U+041A\U+0418
 70
     0
 62
    11
  6
Continuous
370
    -3
390
F
  0
ENDTAB
  0
TABLE
  2
STYLE
  5
3
330
0
100
AcDbSymbolTable
 70
     1
  0
STYLE
  5
11
330
3
100
AcDbSymbolTableRecord
100
AcDbTextStyleTableRecord
  2
Standard
 70
     0
 40
0.0
 41
1.0
 50
0.0
 71
     0
 42
3.5
  3
txt
  4

  0
ENDTAB
  0
TABLE
  2
VIEW
  5
6
330
0
100
AcDbSymbolTable
 70
     0
  0
ENDTAB
  0
TABLE
  2
UCS
  5
7
330
0
100
AcDbSymbolTable
 70
     0
  0
ENDTAB
  0
TABLE
  2
APPID
  5
9
330
0
100
AcDbSymbolTable
 70
     1
  0
APPID
  5
12
330
9
100
AcDbSymbolTableRecord
100
AcDbRegAppTableRecord
  2
ACAD
 70
     0
  0
ENDTAB
  0
TABLE
  2
DIMSTYLE
  5
A
330
0
100
AcDbSymbolTable
 70
     1
100
AcDbDimStyleTable
  0
DIMSTYLE
105
27
330
A
100
AcDbSymbolTableRecord
100
AcDbDimStyleTableRecord
  2
ISO-25
 70
     0
 41
2.5
 42
0.625
 43
3.75
 44
1.25
 73
     0
 74
     0
 77
     1
 78
     8
140
2.5
141
2.5
143
0.0393700787
147
0.625
171
     3
172
     1
178
     0
271
     2
272
     2
274
     3
278
    44
283
     0
284
     8
340
11
  0
ENDTAB
  0
TABLE
  2
BLOCK_RECORD
  5
1
330
0
100
AcDbSymbolTable
 70
     2
  0
BLOCK_RECORD
  5
1F
330
1
100
AcDbSymbolTableRecord
100
AcDbBlockTableRecord
  2
*Model_Space
340
22
  0
BLOCK_RECORD
  5
1B
330
1
100
AcDbSymbolTableRecord
100
AcDbBlockTableRecord
  2
*Paper_Space
340
1E
  0
BLOCK_RECORD
  5
23
330
1
100
AcDbSymbolTableRecord
100
AcDbBlockTableRecord
  2
*Paper_Space0
340
26
  0
BLOCK_RECORD
  5
88
330
1
100
AcDbSymbolTableRecord
100
AcDbBlockTableRecord
  2
SW_CENTERMARKSYMBOL_0
340
0
102
{BLKREFS
331
93
102
}
  0
ENDTAB
  0
ENDSEC
  0
SECTION
  2
BLOCKS
  0
BLOCK
  5
20
330
1F
100
AcDbEntity
  8
0
100
AcDbBlockBegin
  2
*Model_Space
 70
     0
 10
0.0
 20
0.0
 30
0.0
  3
*Model_Space
  1

  0
ENDBLK
  5
21
330
1F
100
AcDbEntity
  8
0
100
AcDbBlockEnd
  0
BLOCK
  5
1C
330
1B
100
AcDbEntity
 67
     1
  8
0
100
AcDbBlockBegin
  2
*Paper_Space
 70
     0
 10
0.0
 20
0.0
 30
0.0
  3
*Paper_Space
  1

  0
ENDBLK
  5
1D
330
1B
100
AcDbEntity
 67
     1
  8
0
100
AcDbBlockEnd
  0
BLOCK
  5
24
330
23
100
AcDbEntity
  8
0
100
AcDbBlockBegin
  2
*Paper_Space0
 70
     0
 10
0.0
 20
0.0
 30
0.0
  3
*Paper_Space0
  1

  0
ENDBLK
  5
25
330
23
100
AcDbEntity
  8
0
100
AcDbBlockEnd
  0
BLOCK
  5
89
330
88
100
AcDbEntity
  8
0
100
AcDbBlockBegin
  2
SW_CENTERMARKSYMBOL_0
 70
     0
 10
0.0
 20
0.0
 30
0.0
  3
SW_CENTERMARKSYMBOL_0
  1

  0
LINE
  5
8B
330
88
100
AcDbEntity
  8
FORMAT
 62
     0
100
AcDbLine
 10
0.0
 20
0.0
 30
0.0
 11
0.0
 21
2.5
 31
0.0
  0
LINE
  5
8C
330
88
100
AcDbEntity
  8
FORMAT
 62
     0
100
AcDbLine
 10
0.0
 20
0.0
 30
0.0
 11
-2.5
 21
0.0
 31
0.0
  0
LINE
  5
8D
330
88
100
AcDbEntity
  8
FORMAT
 62
     0
100
AcDbLine
 10
0.0
 20
0.0
 30
0.0
 11
0.0
 21
-2.5
 31
0.0
  0
LINE
  5
8E
330
88
100
AcDbEntity
  8
FORMAT
 62
     0
100
AcDbLine
 10
0.0
 20
0.0
 30
0.0
 11
2.5
 21
0.0
 31
0.0
  0
LINE
  5
8F
330
88
100
AcDbEntity
  8
FORMAT
 62
     0
100
AcDbLine
 10
0.0
 20
5.0
 30
0.0
 11
0.0
 21
102.5
 31
0.0
  0
LINE
  5
90
330
88
100
AcDbEntity
  8
FORMAT
 62
     0
100
AcDbLine
 10
-5.0
 20
0.0
 30
0.0
 11
-102.5
 21
0.0
 31
0.0
  0
LINE
  5
91
330
88
100
AcDbEntity
  8
FORMAT
 62
     0
100
AcDbLine
 10
0.0
 20
-5.0
 30
0.0
 11
0.0
 21
-102.5
 31
0.0
  0
LINE
  5
92
330
88
100
AcDbEntity
  8
FORMAT
 62
     0
100
AcDbLine
 10
5.0
 20
0.0
 30
0.0
 11
102.5
 21
0.0
 31
0.0
  0
ENDBLK
  5
8A
330
88
100
AcDbEntity
  8
0
100
AcDbBlockEnd
  0
ENDSEC
  0
SECTION
  2
ENTITIES
  0
CIRCLE
  5
83
330
1F
100
AcDbEntity
  8
0
  6
Continuous
 62
     7
370
    25
100
AcDbCircle
 10
139.395004093
 20
107.5851680021
 30
0.0
 40
100.0
  0
CIRCLE
  5
84
330
1F
100
AcDbEntity
  8
0
  6
Continuous
 62
     7
370
    25
100
AcDbCircle
 10
139.395004093
 20
107.5851680021
 30
0.0
 40
81.80000000000001
  0
CIRCLE
  5
85
330
1F
100
AcDbEntity
  8
0
  6
Continuous
 62
     7
370
    25
100
AcDbCircle
 10
139.395004093
 20
107.5851680021
 30
0.0
 40
81.54341649025257
  0
CIRCLE
  5
86
330
1F
100
AcDbEntity
  8
0
  6
Continuous
 62
     7
370
    25
100
AcDbCircle
 10
139.395004093
 20
107.5851680021
 30
0.0
 40
65.65658350974745
  0
CIRCLE
  5
87
330
1F
100
AcDbEntity
  8
0
  6
Continuous
 62
     7
370
    25
100
AcDbCircle
 10
139.395004093
 20
107.5851680021
 30
0.0
 40
65.40000000000002
  0
INSERT
  5
93
330
1F
100
AcDbEntity
  8
FORMAT
 62
     7
100
AcDbBlockReference
  2
SW_CENTERMARKSYMBOL_0
 10
139.395004093
 20
107.5851680021
 30
0.0
  0
LINE
  5
94
330
1F
100
AcDbEntity
  8
0
  6
Continuous
 62
     7
370
    25
100
AcDbLine
 10
-204.5432693577
 20
207.5851694922
 30
0.0
 11
-316.2187162107
 21
207.5851694922
 31
0.0
  0
LINE
  5
95
330
1F
100
AcDbEntity
  8
0
  6
Continuous
 62
     7
370
    25
100
AcDbLine
 10
-316.2187162107
 20
7.585166512
 30
0.0
 11
-204.5432693577
 21
7.585166512
 31
0.0
  0
ARC
  5
96
330
1F
100
AcDbEntity
  8
0
  6
Continuous
 62
     7
370
    25
100
AcDbCircle
 10
-204.5432688846
 20
205.5851680021
 30
0.0
 40
2.000000000000028
100
AcDbArc
 50
71.5650511771
 51
90.0
  0
ARC
  5
97
330
1F
100
AcDbEntity
  8
0
  6
Continuous
 62
     7
370
    25
100
AcDbCircle
 10
-204.5432688846
 20
9.5851680021
 30
0.0
 40
1.999999999999988
100
AcDbArc
 50
270.0
 51
288.4349488229
  0
LINE
  5
98
330
1F
100
AcDbEntity
  8
0
  6
Continuous
 62
     7
370
    25
100
AcDbLine
 10
-203.9108137852
 20
7.6877982597
 30
0.0
 11
-144.5266130632
 21
27.4825380425
 31
0.0
  0
LINE
  5
99
330
1F
100
AcDbEntity
  8
0
  6
Continuous
 62
     7
370
    25
100
AcDbLine
 10
-144.5266130632
 20
187.6877979617
 30
0.0
 11
-203.9108137852
 21
207.4825377445
 31
0.0
  0
ARC
  5
9A
330
1F
100
AcDbEntity
  8
0
  6
Continuous
 62
     7
370
    25
100
AcDbCircle
 10
-143.8941582439
 20
189.5851680021
 30
0.0
 40
2.000000000000031
100
AcDbArc
 50
251.5650511771
 51
270.0
  0
ARC
  5
9B
330
1F
100
AcDbEntity
  8
0
  6
Continuous
 62
     7
370
    25
100
AcDbCircle
 10
-143.8941582439
 20
25.5851680021
 30
0.0
 40
2.000000000000007
100
AcDbArc
 50
90.0
 51
108.4349488229
  0
LINE
  5
9C
330
1F
100
AcDbEntity
  8
0
  6
Continuous
 62
     7
370
    25
100
AcDbLine
 10
-46.218720383
 20
187.585166214
 30
0.0
 11
-143.8941593534
 21
187.585166214
 31
0.0
  0
LINE
  5
9D
330
1F
100
AcDbEntity
  8
0
  6
Continuous
 62
     7
370
    25
100
AcDbLine
 10
-143.8941593534
 20
27.5851697903
 30
0.0
 11
-46.218720383
 21
27.5851697903
 31
0.0
  0
LINE
  5
9E
330
1F
100
AcDbEntity
  8
0
  6
Continuous
 62
     7
370
    25
100
AcDbLine
 10
-316.2187162107
 20
207.5851694922
 30
0.0
 11
-316.2187162107
 21
7.585166512
 31
0.0
  0
LINE
  5
9F
330
1F
100
AcDbEntity
  8
0
  6
Continuous
 62
     7
370
    25
100
AcDbLine
 10
-46.218720383
 20
187.585166214
 30
0.0
 11
-46.218720383
 21
27.5851697903
 31
0.0
  0
LINE
  5
A0
330
1F
100
AcDbEntity
  8
0
  6
Continuous
 62
     1
370
    25
100
AcDbLine
 10
-204.5432693577
 20
207.5851694922
 30
0.0
 11
-204.5432693577
 21
7.585166512
 31
0.0
  0
LINE
  5
A1
330
1F
100
AcDbEntity
  8
0
  6
Continuous
 62
     1
370
    25
100
AcDbLine
 10
-203.9108137852
 20
207.4825377445
 30
0.0
 11
-203.9108137852
 21
7.6877982597
 31
0.0
  0
LINE
  5
A2
330
1F
100
AcDbEntity
  8
0
  6
Continuous
 62
     1
370
    25
100
AcDbLine
 10
-144.5266130632
 20
187.6877979617
 30
0.0
 11
-144.5266130632
 21
27.4825380425
 31
0.0
  0
LINE
  5
A3
330
1F
100
AcDbEntity
  8
0
  6
Continuous
 62
     1
370
    25
100
AcDbLine
 10
-143.8941593534
 20
187.585166214
 30
0.0
 11
-143.8941593534
 21
27.5851697903
 31
0.0
  0
LINE
  5
A4
330
1F
100
AcDbEntity
  8
0
  6
Continuous
 62
     7
370
    25
100
AcDbLine
 10
497.9707250391
 20
7.585166512
 30
0.0
 11
609.6461718922
 21
7.585166512
 31
0.0
  0
LINE
  5
A5
330
1F
100
AcDbEntity
  8
0
  6
Continuous
 62
     7
370
    25
100
AcDbLine
 10
609.6461718922
 20
207.5851694922
 30
0.0
 11
497.9707250391
 21
207.5851694922
 31
0.0
  0
ARC
  5
A6
330
1F
100
AcDbEntity
  8
0
  6
Continuous
 62
     7
370
    25
100
AcDbCircle
 10
497.9707245661
 20
9.5851680021
 30
0.0
 40
1.999999999999995
100
AcDbArc
 50
251.5650511771
 51
270.0
  0
ARC
  5
A7
330
1F
100
AcDbEntity
  8
0
  6
Continuous
 62
     7
370
    25
100
AcDbCircle
 10
497.9707245661
 20
205.5851680021
 30
0.0
 40
2.000000000000028
100
AcDbArc
 50
90.0
 51
108.4349488229
  0
LINE
  5
A8
330
1F
100
AcDbEntity
  8
0
  6
Continuous
 62
     7
370
    25
100
AcDbLine
 10
497.3382694666
 20
207.4825377445
 30
0.0
 11
437.9540687447
 21
187.6877979617
 31
0.0
  0
LINE
  5
A9
330
1F
100
AcDbEntity
  8
0
  6
Continuous
 62
     7
370
    25
100
AcDbLine
 10
437.9540687447
 20
27.4825380425
 30
0.0
 11
497.3382694666
 21
7.6877982597
 31
0.0
  0
ARC
  5
AA
330
1F
100
AcDbEntity
  8
0
  6
Continuous
 62
     7
370
    25
100
AcDbCircle
 10
437.3216139254
 20
25.5851680021
 30
0.0
 40
2.000000000000007
100
AcDbArc
 50
71.5650511771
 51
90.0
  0
ARC
  5
AB
330
1F
100
AcDbEntity
  8
0
  6
Continuous
 62
     7
370
    25
100
AcDbCircle
 10
437.3216139254
 20
189.5851680021
 30
0.0
 40
2.000000000000031
100
AcDbArc
 50
270.0
 51
288.4349488229
  0
LINE
  5
AC
330
1F
100
AcDbEntity
  8
0
  6
Continuous
 62
     7
370
    25
100
AcDbLine
 10
339.6461760645
 20
27.5851697903
 30
0.0
 11
437.3216150348
 21
27.5851697903
 31
0.0
  0
LINE
  5
AD
330
1F
100
AcDbEntity
  8
0
  6
Continuous
 62
     7
370
    25
100
AcDbLine
 10
437.3216150348
 20
187.585166214
 30
0.0
 11
339.6461760645
 21
187.585166214
 31
0.0
  0
LINE
  5
AE
330
1F
100
AcDbEntity
  8
0
  6
Continuous
 62
     7
370
    25
100
AcDbLine
 10
609.6461718922
 20
107.5851680021
 30
0.0
 11
609.6461718922
 21
207.5851694922
 31
0.0
  0
LINE
  5
AF
330
1F
100
AcDbEntity
  8
0
  6
Continuous
 62
     7
370
    25
100
AcDbLine
 10
609.6461718922
 20
7.585166512
 30
0.0
 11
609.6461718922
 21
107.5851680021
 31
0.0
  0
LINE
  5
B0
330
1F
100
AcDbEntity
  8
0
  6
Continuous
 62
     7
370
    25
100
AcDbLine
 10
339.6461760645
 20
107.5851680021
 30
0.0
 11
339.6461760645
 21
187.585166214
 31
0.0
  0
LINE
  5
B1
330
1F
100
AcDbEntity
  8
0
  6
Continuous
 62
     7
370
    25
100
AcDbLine
 10
339.6461760645
 20
27.5851697903
 30
0.0
 11
339.6461760645
 21
107.5851680021
 31
0.0
  0
LINE
  5
B2
330
1F
100
AcDbEntity
  8
0
  6
Continuous
 62
     1
370
    25
100
AcDbLine
 10
497.9707250391
 20
107.5851680021
 30
0.0
 11
497.9707250391
 21
207.5851694922
 31
0.0
  0
LINE
  5
B3
330
1F
100
AcDbEntity
  8
0
  6
Continuous
 62
     1
370
    25
100
AcDbLine
 10
497.9707250391
 20
7.585166512
 30
0.0
 11
497.9707250391
 21
107.5851680021
 31
0.0
  0
LINE
  5
B4
330
1F
100
AcDbEntity
  8
0
  6
Continuous
 62
     1
370
    25
100
AcDbLine
 10
497.3382694666
 20
107.5851680021
 30
0.0
 11
497.3382694666
 21
207.4825377445
 31
0.0
  0
LINE
  5
B5
330
1F
100
AcDbEntity
  8
0
  6
Continuous
 62
     1
370
    25
100
AcDbLine
 10
497.3382694666
 20
7.6877982597
 30
0.0
 11
497.3382694666
 21
107.5851680021
 31
0.0
  0
LINE
  5
B6
330
1F
100
AcDbEntity
  8
0
  6
Continuous
 62
     1
370
    25
100
AcDbLine
 10
437.9540687447
 20
107.5851680021
 30
0.0
 11
437.9540687447
 21
187.6877979617
 31
0.0
  0
LINE
  5
B7
330
1F
100
AcDbEntity
  8
0
  6
Continuous
 62
     1
370
    25
100
AcDbLine
 10
437.9540687447
 20
27.4825380425
 30
0.0
 11
437.9540687447
 21
107.5851680021
 31
0.0
  0
LINE
  5
B8
330
1F
100
AcDbEntity
  8
0
  6
Continuous
 62
     1
370
    25
100
AcDbLine
 10
437.3216150348
 20
107.5851680021
 30
0.0
 11
437.3216150348
 21
187.585166214
 31
0.0
  0
LINE
  5
B9
330
1F
100
AcDbEntity
  8
0
  6
Continuous
 62
     1
370
    25
100
AcDbLine
 10
437.3216150348
 20
27.5851697903
 30
0.0
 11
437.3216150348
 21
107.5851680021
 31
0.0
  0
LINE
  5
BA
330
1F
100
AcDbEntity
  8
0
  6
Continuous
 62
     7
370
    25
100
AcDbLine
 10
239.3950055832
 20
413.1951343159
 30
0.0
 11
239.3950055832
 21
524.8705811689
 31
0.0
  0
LINE
  5
BB
330
1F
100
AcDbEntity
  8
0
  6
Continuous
 62
     7
370
    25
100
AcDbLine
 10
39.3950026029
 20
524.8705811689
 30
0.0
 11
39.3950026029
 21
413.1951343159
 31
0.0
  0
ARC
  5
BC
330
1F
100
AcDbEntity
  8
0
  6
Continuous
 62
     7
370
    25
100
AcDbCircle
 10
237.395004093
 20
413.1951338428
 30
0.0
 40
1.999999999999986
100
AcDbArc
 50
341.5650511771
 51
0.0
  0
ARC
  5
BD
330
1F
100
AcDbEntity
  8
0
  6
Continuous
 62
     7
370
    25
100
AcDbCircle
 10
41.395004093
 20
413.1951338428
 30
0.0
 40
1.999999999999986
100
AcDbArc
 50
180.0
 51
198.4349488229
  0
LINE
  5
BE
330
1F
100
AcDbEntity
  8
0
  6
Continuous
 62
     7
370
    25
100
AcDbLine
 10
39.4976343507
 20
412.5626787434
 30
0.0
 11
59.2923741335
 21
353.1784780214
 31
0.0
  0
LINE
  5
BF
330
1F
100
AcDbEntity
  8
0
  6
Continuous
 62
     7
370
    25
100
AcDbLine
 10
219.4976340526
 20
353.1784780214
 30
0.0
 11
239.2923738354
 21
412.5626787434
 31
0.0
  0
ARC
  5
C0
330
1F
100
AcDbEntity
  8
0
  6
Continuous
 62
     7
370
    25
100
AcDbCircle
 10
221.395004093
 20
352.5460232021
 30
0.0
 40
2.000000000000028
100
AcDbArc
 50
161.5650511771
 51
180.0
  0
ARC
  5
C1
330
1F
100
AcDbEntity
  8
0
  6
Continuous
 62
     7
370
    25
100
AcDbCircle
 10
57.395004093
 20
352.5460232021
 30
0.0
 40
2.000000000000007
100
AcDbArc
 50
0.0
 51
18.4349488229
  0
LINE
  5
C2
330
1F
100
AcDbEntity
  8
0
  6
Continuous
 62
     7
370
    25
100
AcDbLine
 10
219.3950023049
 20
254.8705853412
 30
0.0
 11
219.3950023049
 21
352.5460243116
 31
0.0
  0
LINE
  5
C3
330
1F
100
AcDbEntity
  8
0
  6
Continuous
 62
     7
370
    25
100
AcDbLine
 10
59.3950058812
 20
352.5460243116
 30
0.0
 11
59.3950058812
 21
254.8705853412
 31
0.0
  0
LINE
  5
C4
330
1F
100
AcDbEntity
  8
0
  6
Continuous
 62
     7
370
    25
100
AcDbLine
 10
239.3950055832
 20
524.8705811689
 30
0.0
 11
39.3950026029
 21
524.8705811689
 31
0.0
  0
LINE
  5
C5
330
1F
100
AcDbEntity
  8
0
  6
Continuous
 62
     7
370
    25
100
AcDbLine
 10
219.3950023049
 20
254.8705853412
 30
0.0
 11
59.3950058812
 21
254.8705853412
 31
0.0
  0
LINE
  5
C6
330
1F
100
AcDbEntity
  8
0
  6
Continuous
 62
     1
370
    25
100
AcDbLine
 10
239.3950055832
 20
413.1951343159
 30
0.0
 11
39.3950026029
 21
413.1951343159
 31
0.0
  0
LINE
  5
C7
330
1F
100
AcDbEntity
  8
0
  6
Continuous
 62
     1
370
    25
100
AcDbLine
 10
239.2923738354
 20
412.5626787434
 30
0.0
 11
39.4976343507
 21
412.5626787434
 31
0.0
  0
LINE
  5
C8
330
1F
100
AcDbEntity
  8
0
  6
Continuous
 62
     1
370
    25
100
AcDbLine
 10
219.4976340526
 20
353.1784780214
 30
0.0
 11
59.2923741335
 21
353.1784780214
 31
0.0
  0
LINE
  5
C9
330
1F
100
AcDbEntity
  8
0
  6
Continuous
 62
     1
370
    25
100
AcDbLine
 10
219.3950023049
 20
352.5460243116
 30
0.0
 11
59.3950058812
 21
352.5460243116
 31
0.0
  0
LINE
  5
CA
330
1F
100
AcDbEntity
  8
0
  6
Continuous
 62
     7
370
    25
100
AcDbLine
 10
39.3950026029
 20
-212.8498892118
 30
0.0
 11
39.3950026029
 21
-324.5253360649
 31
0.0
  0
LINE
  5
CB
330
1F
100
AcDbEntity
  8
0
  6
Continuous
 62
     7
370
    25
100
AcDbLine
 10
239.3950055832
 20
-324.5253360649
 30
0.0
 11
239.3950055832
 21
-212.8498892118
 31
0.0
  0
ARC
  5
CC
330
1F
100
AcDbEntity
  8
0
  6
Continuous
 62
     7
370
    25
100
AcDbCircle
 10
41.395004093
 20
-212.8498887388
 30
0.0
 40
1.999999999999988
100
AcDbArc
 50
161.5650511771
 51
180.0
  0
ARC
  5
CD
330
1F
100
AcDbEntity
  8
0
  6
Continuous
 62
     7
370
    25
100
AcDbCircle
 10
237.395004093
 20
-212.8498887388
 30
0.0
 40
1.999999999999995
100
AcDbArc
 50
0.0
 51
18.4349488229
  0
LINE
  5
CE
330
1F
100
AcDbEntity
  8
0
  6
Continuous
 62
     7
370
    25
100
AcDbLine
 10
239.2923738354
 20
-212.2174336394
 30
0.0
 11
219.4976340526
 21
-152.8332329174
 31
0.0
  0
LINE
  5
CF
330
1F
100
AcDbEntity
  8
0
  6
Continuous
 62
     7
370
    25
100
AcDbLine
 10
59.2923741335
 20
-152.8332329174
 30
0.0
 11
39.4976343507
 21
-212.2174336394
 31
0.0
  0
ARC
  5
D0
330
1F
100
AcDbEntity
  8
0
  6
Continuous
 62
     7
370
    25
100
AcDbCircle
 10
57.395004093
 20
-152.2007780981
 30
0.0
 40
2.00000000000001
100
AcDbArc
 50
341.5650511771
 51
0.0
  0
ARC
  5
D1
330
1F
100
AcDbEntity
  8
0
  6
Continuous
 62
     7
370
    25
100
AcDbCircle
 10
221.395004093
 20
-152.2007780981
 30
0.0
 40
2.000000000000028
100
AcDbArc
 50
180.0
 51
198.4349488229
  0
LINE
  5
D2
330
1F
100
AcDbEntity
  8
0
  6
Continuous
 62
     7
370
    25
100
AcDbLine
 10
59.3950058812
 20
-54.5253402372
 30
0.0
 11
59.3950058812
 21
-152.2007792075
 31
0.0
  0
LINE
  5
D3
330
1F
100
AcDbEntity
  8
0
  6
Continuous
 62
     7
370
    25
100
AcDbLine
 10
219.3950023049
 20
-152.2007792075
 30
0.0
 11
219.3950023049
 21
-54.5253402372
 31
0.0
  0
LINE
  5
D4
330
1F
100
AcDbEntity
  8
0
  6
Continuous
 62
     7
370
    25
100
AcDbLine
 10
39.3950026029
 20
-324.5253360649
 30
0.0
 11
239.3950055832
 21
-324.5253360649
 31
0.0
  0
LINE
  5
D5
330
1F
100
AcDbEntity
  8
0
  6
Continuous
 62
     7
370
    25
100
AcDbLine
 10
59.3950058812
 20
-54.5253402372
 30
0.0
 11
219.3950023049
 21
-54.5253402372
 31
0.0
  0
LINE
  5
D6
330
1F
100
AcDbEntity
  8
0
  6
Continuous
 62
     1
370
    25
100
AcDbLine
 10
39.3950026029
 20
-212.8498892118
 30
0.0
 11
239.3950055832
 21
-212.8498892118
 31
0.0
  0
LINE
  5
D7
330
1F
100
AcDbEntity
  8
0
  6
Continuous
 62
     1
370
    25
100
AcDbLine
 10
39.4976343507
 20
-212.2174336394
 30
0.0
 11
239.2923738354
 21
-212.2174336394
 31
0.0
  0
LINE
  5
D8
330
1F
100
AcDbEntity
  8
0
  6
Continuous
 62
     1
370
    25
100
AcDbLine
 10
59.2923741335
 20
-152.8332329174
 30
0.0
 11
219.4976340526
 21
-152.8332329174
 31
0.0
  0
LINE
  5
D9
330
1F
100
AcDbEntity
  8
0
  6
Continuous
 62
     1
370
    25
100
AcDbLine
 10
59.3950058812
 20
-152.2007792075
 30
0.0
 11
219.3950023049
 21
-152.2007792075
 31
0.0
  0
LINE
  5
DA
330
1F
100
AcDbEntity
  8
0
  6
Continuous
 62
     7
370
    25
100
AcDbLine
 10
504.6084833351
 20
-79.4103365002
 30
0.0
 11
425.6420175733
 21
-33.8239661491
 31
0.0
  0
LINE
  5
DB
330
1F
100
AcDbEntity
  8
0
  6
Continuous
 62
     7
370
    25
100
AcDbLine
 10
325.6501473045
 20
-207.0337395981
 30
0.0
 11
404.6166130663
 21
-252.6201099493
 31
0.0
  0
SPLINE
  5
DC
330
1F
100
AcDbEntity
  8
0
  6
Continuous
 62
     7
370
    25
100
AcDbSpline
210
0.0
220
0.0
230
1.0
 70
     8
 71
     3
 72
     9
 73
     5
 74
     0
 42
0.000000001
 43
0.00000001
 40
0.0
 40
0.0
 40
0.0
 40
0.0
 40
0.5358970760460928
 40
1.0
 40
1.0
 40
1.0
 40
1.0
 10
511.2894134173634
 20
-84.45866511522149
 30
0.0
 10
510.9284363825724
 20
-84.10035698176675
 30
0.0
 10
510.2548424203618
 20
-83.4317432694129
 30
0.0
 10
509.5150081257883
 20
-82.85826057119732
 30
0.0
 10
509.1716488664354
 20
-82.59210557411846
 30
0.0
  0
SPLINE
  5
DD
330
1F
100
AcDbEntity
  8
0
  6
Continuous
 62
     7
370
    25
100
AcDbSpline
210
0.0
220
0.0
230
1.0
 70
     8
 71
     3
 72
     9
 73
     5
 74
     0
 42
0.000000001
 43
0.00000001
 40
0.0
 40
0.0
 40
0.0
 40
0.0
 40
0.5468783471909313
 40
1.0
 40
1.0
 40
1.0
 40
1.0
 10
409.6412615641009
 20
-254.9763190243515
 30
0.0
 10
410.1592342373994
 20
-255.1836866843734
 30
0.0
 10
411.1063784715039
 20
-255.5628709418724
 30
0.0
 10
412.1064419261294
 20
-255.8280583364933
 30
0.0
 10
412.5595923316033
 20
-255.948220487048
 30
0.0
  0
LINE
  5
DE
330
1F
100
AcDbEntity
  8
0
  6
Continuous
 62
     7
370
    25
100
AcDbLine
 10
418.2974735075
 20
-257.1489559832
 30
0.0
 11
467.5729188033
 21
-263.38277265
 31
0.0
  0
LINE
  5
DF
330
1F
100
AcDbEntity
  8
0
  6
Continuous
 62
     7
370
    25
100
AcDbLine
 10
545.4119866605
 20
-128.5469396483
 30
0.0
 11
515.3719125806
 21
-88.9928782367
 31
0.0
  0
LINE
  5
E0
330
1F
100
AcDbEntity
  8
0
  6
Continuous
 62
     7
370
    25
100
AcDbLine
 10
606.5616585165
 20
-161.3600393204
 30
0.0
 11
542.047390573
 21
-124.1167451824
 31
0.0
  0
LINE
  5
E1
330
1F
100
AcDbEntity
  8
0
  6
Continuous
 62
     7
370
    25
100
AcDbLine
 10
462.053894358
 20
-262.6845590747
 30
0.0
 11
526.5681623015
 21
-299.9278532127
 31
0.0
  0
LWPOLYLINE
  5
E2
330
1F
100
AcDbEntity
  8
0
  6
Continuous
 62
     7
370
    25
100
AcDbPolyline
 90
      122
 70
   128
 43
0.0
 10
304.9354032666
 20
-161.249259073
 10
305.0307183645
 20
-156.9560762854
 10
305.316394972
 20
-152.5644253318
 10
305.7916691776
 20
-148.0861419851
 10
306.4552607707
 20
-143.5332977131
 10
307.3053732419
 20
-138.9181723019
 10
308.339725393
 20
-134.2531991058
 10
309.5555197269
 20
-129.5509589604
 10
310.9494845946
 20
-124.824128475
 10
312.5178636581
 20
-120.0854450507
 10
314.2564211591
 20
-115.3476901502
 10
316.1604735292
 20
-110.6236360688
 10
318.2248893896
 20
-105.9260124737
 10
320.4441053561
 20
-101.2674820712
 10
322.8121313081
 20
-96.6606162714
 10
325.3225925346
 20
-92.1178191471
 10
327.9687139297
 20
-87.6513426406
 10
330.7433674077
 20
-83.2732287733
 10
333.639071903
 20
-78.9952792274
 10
336.6480170777
 20
-74.829029492
 10
339.7620949319
 20
-70.7857123642
 10
342.9729103401
 20
-66.8762214477
 10
346.2718047591
 20
-63.1110974665
 10
349.6498878381
 20
-59.5004917661
 10
353.0980532237
 20
-56.0541389378
 10
356.6070035845
 20
-52.7813302055
 10
360.1672795871
 20
-49.69088453
 10
363.769284921
 20
-46.7911402471
 10
367.4033067132
 20
-44.0899067794
 10
371.0595494436
 20
-41.5944693929
 10
374.7281571702
 20
-39.3115581148
 10
378.3992393778
 20
-37.2473267285
 10
382.0628992949
 20
-35.4073303422
 10
385.7092608942
 20
-33.7965402209
 10
389.328494411
 20
-32.4192986358
 10
392.9108421913
 20
-31.2793161105
 10
396.44664668
 20
-30.3796613473
 10
399.9263761038
 20
-29.7227646516
 10
403.340652789
 20
-29.3103894174
 10
406.6802663321
 20
-29.143661026
 10
409.936221015
 20
-29.2230212227
 10
413.0997318541
 20
-29.5482547326
 10
416.1622772834
 20
-30.118483182
 10
419.1155965207
 20
-30.9321727025
 10
421.9517290798
 20
-31.987135456
 10
424.6630305761
 20
-33.2805144264
 10
427.2421911657
 20
-34.8088336125
 10
429.6822566184
 20
-36.5679736947
 10
431.976652026
 20
-38.5531796421
 10
434.1191870701
 20
-40.7591124244
 10
436.1040929007
 20
-43.1798185966
 10
437.9260115998
 20
-45.8087759263
 10
439.5800383278
 20
-48.6388964392
 10
441.0617055188
 20
-51.6625507522
 10
442.3670302957
 20
-54.8715802458
 10
443.4924828599
 20
-58.2573472512
 10
444.4350339065
 20
-61.8107152831
 10
445.1921388198
 20
-65.5221098747
 10
445.7617640141
 20
-69.3815201019
 10
446.1423711296
 20
-73.3785449693
 10
446.3329275684
 20
-77.502412043
 10
446.3329275684
 20
-81.7419995056
 10
446.1423711296
 20
-86.0858783604
 10
445.7617640141
 20
-90.5223428496
 10
445.1921388198
 20
-95.0394283272
 10
444.4350339065
 20
-99.6249576452
 10
443.4924828599
 20
-104.2665719515
 10
442.3670302957
 20
-108.9517588286
 10
441.0617055188
 20
-113.6678842301
 10
439.5800383278
 20
-118.4022350687
 10
437.9260115998
 20
-123.1420541927
 10
436.1040929007
 20
-127.8745540772
 10
434.1191870701
 20
-132.5869837408
 10
431.976652026
 20
-137.2666348303
 10
429.6822566184
 20
-141.9008933286
 10
427.2421911657
 20
-146.477273016
 10
424.6630305761
 20
-150.9834276338
 10
421.9517290798
 20
-155.4072086794
 10
419.1155965207
 20
-159.7367003853
 10
416.1622772834
 20
-163.9602197168
 10
413.0997318541
 20
-168.0663878543
 10
409.936221015
 20
-172.0441332332
 10
406.6802663321
 20
-175.882738689
 10
403.340652789
 20
-179.5718460206
 10
399.9263761038
 20
-183.1015107385
 10
396.44664668
 20
-186.4622241183
 10
392.9108421913
 20
-189.6449223224
 10
389.328494411
 20
-192.6410305051
 10
385.7092608942
 20
-195.4424669928
 10
382.0628992949
 20
-198.0416763616
 10
378.3992393778
 20
-200.4316516782
 10
374.7281571702
 20
-202.6059615889
 10
371.0595494436
 20
-204.558734633
 10
367.4033067132
 20
-206.2847052477
 10
363.769284921
 20
-207.7792240322
 10
360.1672795871
 20
-209.0382665855
 10
356.6070035845
 20
-210.058428086
 10
353.0980532237
 20
-210.8369672048
 10
349.6498878381
 20
-211.3717813892
 10
346.2718047591
 20
-211.6614273927
 10
342.9729103401
 20
-211.7051258346
 10
339.7620949319
 20
-211.5027634799
 10
336.6480170777
 20
-211.0548841115
 10
333.639071903
 20
-210.3626885275
 10
330.7433674077
 20
-209.4280482276
 10
327.9687139297
 20
-208.2534810766
 10
325.3225925346
 20
-206.8421513022
 10
322.8121313081
 20
-205.1978710133
 10
320.4441053561
 20
-203.3250697815
 10
318.2248893896
 20
-201.2287915948
 10
316.1604735292
 20
-198.9146918174
 10
314.2564211591
 20
-196.3890098089
 10
312.5178636581
 20
-193.6585506726
 10
310.9494845946
 20
-190.7306791708
 10
309.5555197269
 20
-187.6132862637
 10
308.339725393
 20
-184.3147723771
 10
307.3053732419
 20
-180.8440367546
 10
306.4552607707
 20
-177.2104303104
 10
305.7916691776
 20
-173.4237525835
 10
305.316394972
 20
-169.4942091543
 10
305.0307183645
 20
-165.4323933911
 10
304.9354032666
 20
-161.249259073
  0
LWPOLYLINE
  5
E3
330
1F
100
AcDbEntity
  8
0
  6
Continuous
 62
     7
370
    25
100
AcDbPolyline
 90
      110
 70
   128
 43
0.0
 10
317.8047485302
 20
-153.8199441898
 10
317.900817003
 20
-149.9164055478
 10
318.1887168569
 20
-145.9149083881
 10
318.6674787142
 20
-141.8287512143
 10
319.3355167998
 20
-137.6715077601
 10
320.1906184041
 20
-133.4569809799
 10
321.2299333466
 20
-129.1991798534
 10
322.450010854
 20
-124.9122471459
 10
323.8468048289
 20
-120.6104153011
 10
325.4156685812
 20
-116.3079851481
 10
327.151396975
 20
-112.0192376916
 10
329.0482158923
 20
-107.7584295481
 10
331.0998296474
 20
-103.5397138622
 10
333.2994209876
 20
-99.3770977206
 10
335.6396827031
 20
-95.2844178205
 10
338.1128413344
 20
-91.2752629043
 10
340.7106835146
 20
-87.3629555112
 10
343.4245770421
 20
-83.5604850583
 10
346.2455077598
 20
-79.8804926349
 10
349.1641032622
 20
-76.3351964793
 10
352.1706697742
 20
-72.9363737311
 10
355.2552184926
 20
-69.695314806
 10
358.407503782
 20
-66.6227891787
 10
361.6170534676
 20
-63.7290035599
 10
364.873207031
 20
-61.0235676792
 10
368.16514722
 20
-58.5154699535
 10
371.4819375861
 20
-56.2130436497
 10
374.8125612557
 20
-54.1239323347
 10
378.1459536112
 20
-52.2550831772
 10
381.471041638
 20
-50.6126938138
 10
384.7767803101
 20
-49.2022339306
 10
388.0521864222
 20
-48.0283770623
 10
391.2863814775
 20
-47.0950305873
 10
394.4686213224
 20
-46.4052942849
 10
397.5883350004
 20
-45.9614500727
 10
400.6351570211
 20
-45.7649859644
 10
403.5989708236
 20
-45.8165405601
 10
406.4699245821
 20
-46.1159547591
 10
409.2384852063
 20
-46.6622284186
 10
411.8954567807
 20
-47.4535462112
 10
414.4320121748
 20
-48.4872806699
 10
416.8397220188
 20
-49.7599967533
 10
419.1105915824
 20
-51.2674701003
 10
421.2370765797
 20
-53.0046900735
 10
423.2121147794
 20
-54.9658840969
 10
425.0291391757
 20
-57.1445435128
 10
426.6821227692
 20
-59.5334220654
 10
428.1655653963
 20
-62.1245921732
 10
429.4745464123
 20
-64.9094434138
 10
430.6047141551
 20
-67.8787235873
 10
431.5523175552
 20
-71.0225691379
 10
432.3142008674
 20
-74.3305401351
 10
432.887840549
 20
-77.7916430905
 10
433.2713294553
 20
-81.394382668
 10
433.463392644
 20
-85.1267909633
 10
433.463392644
 20
-88.9764693296
 10
433.2713294553
 20
-92.9306290624
 10
432.887840549
 20
-96.9761355065
 10
432.3142008674
 20
-101.0995487406
 10
431.5523175552
 20
-105.2871714861
 10
430.6047141551
 20
-109.5250966345
 10
429.4745464123
 20
-113.799240709
 10
428.1655653963
 20
-118.0954092613
 10
426.6821227692
 20
-122.3993257695
 10
425.0291391757
 20
-126.6966985557
 10
423.2121147794
 20
-130.9732496847
 10
421.2370765797
 20
-135.2147742753
 10
419.1105915824
 20
-139.4071815662
 10
416.8397220188
 20
-143.5365451029
 10
414.4320121748
 20
-147.5891438007
 10
411.8954567807
 20
-151.5515227794
 10
409.2384852063
 20
-155.4105146546
 10
406.4699245821
 20
-159.1533003712
 10
403.5989708236
 20
-162.7674472236
 10
400.6351570211
 20
-166.2409483975
 10
397.5883350004
 20
-169.5622701161
 10
394.4686213224
 20
-172.720370647
 10
391.2863814775
 20
-175.7047702633
 10
388.0521864222
 20
-178.5055459161
 10
384.7767803101
 20
-181.1133924491
 10
381.471041638
 20
-183.5196571954
 10
378.1459536112
 20
-185.716332751
 10
374.8125612557
 20
-187.6961364861
 10
371.4819375861
 20
-189.4524814073
 10
368.16514722
 20
-190.9795397473
 10
364.873207031
 20
-192.2722352617
 10
361.6170534676
 20
-193.3262742626
 10
358.407503782
 20
-194.1381558335
 10
355.2552184926
 20
-194.7051813313
 10
352.1706697742
 20
-195.0254665512
 10
349.1641032622
 20
-195.0979516088
 10
346.2455077598
 20
-194.9223940934
 10
343.4245770421
 20
-194.4993789499
 10
340.7106835146
 20
-193.8303032677
 10
338.1128413344
 20
-192.9174006117
 10
335.6396827031
 20
-191.7636938713
 10
333.2994209876
 20
-190.373022634
 10
331.0998296474
 20
-188.7500005971
 10
329.0482158923
 20
-186.9000277327
 10
327.151396975
 20
-184.8292400952
 10
325.4156685812
 20
-182.5445219853
 10
323.8468048289
 20
-180.0534633645
 10
322.450010854
 20
-177.3643355157
 10
321.2299333466
 20
-174.4860743138
 10
320.1906184041
 20
-171.4282406779
 10
319.3355167998
 20
-168.2009931952
 10
318.6674787142
 20
-164.8150500971
 10
318.1887168569
 20
-161.2816595978
 10
317.900817003
 20
-157.6125645339
 10
317.8047485302
 20
-153.8199441898
  0
ARC
  5
E4
330
1F
100
AcDbEntity
  8
0
  6
Continuous
 62
     7
370
    25
100
AcDbCircle
 10
487.7796280386
 20
-108.5364528185
 30
0.0
 40
33.63838614403263
100
AcDbArc
 50
50.8569992532
 51
59.9809946631
  0
LWPOLYLINE
  5
E5
330
1F
100
AcDbEntity
  8
0
  6
Continuous
 62
     7
370
    25
100
AcDbPolyline
 90
        3
 70
   128
 43
0.0
 10
409.4379333131
 20
-254.9119617559
 10
406.9351796915
 20
-253.8398514277
 10
404.6166130663
 20
-252.6201099493
  0
ARC
  5
E6
330
1F
100
AcDbEntity
  8
0
  6
Continuous
 62
     7
370
    25
100
AcDbCircle
 10
483.3640491782
 20
-113.4848343094
 30
0.0
 40
40.29316100190026
100
AcDbArc
 50
26.1883275197
 51
45.820995183
  0
ARC
  5
E7
330
1F
100
AcDbEntity
  8
0
  6
Continuous
 62
     7
370
    25
100
AcDbCircle
 10
423.4661055667
 20
-217.4541892353
 30
0.0
 40
40.02470563838037
100
AcDbArc
 50
254.4570153285
 51
273.8817540215
  0
ARC
  5
E8
330
1F
100
AcDbEntity
  8
0
  6
Continuous
 62
     7
370
    25
100
AcDbCircle
 10
518.7512704985
 20
-148.7206418093
 30
0.0
 40
33.43309804898642
100
AcDbArc
 50
28.9152075948
 51
37.1141618352
  0
ARC
  5
E9
330
1F
100
AcDbEntity
  8
0
  6
Continuous
 62
     7
370
    25
100
AcDbCircle
 10
471.7085361307
 20
-230.2291290633
 30
0.0
 40
33.41058834790464
100
AcDbArc
 50
262.8895976804
 51
270.9878667181
  0
LWPOLYLINE
  5
EA
330
1F
100
AcDbEntity
  8
0
  6
Continuous
 62
     7
370
    25
100
AcDbPolyline
 90
       56
 70
   128
 43
0.0
 10
606.5616585165
 20
-161.3600393204
 10
607.7113771287
 20
-162.063052178
 10
609.8989276411
 20
-163.6387646886
 10
611.9398492676
 20
-165.4412030563
 10
613.8272378275
 20
-167.4642661997
 10
615.554705439
 20
-169.7011078327
 10
617.1164042271
 20
-172.1441623216
 10
618.5070552987
 20
-174.7851614186
 10
619.7219540121
 20
-177.6151662013
 10
620.7569805128
 20
-180.6246066182
 10
621.6086418807
 20
-183.8032951807
 10
622.2740510566
 20
-187.140477912
 10
622.7509584526
 20
-190.6248632481
 10
623.0377466833
 20
-194.244661581
 10
623.1334516395
 20
-197.9876225236
 10
623.0377466833
 20
-201.8410820566
 10
622.7509584526
 20
-205.7919990326
 10
622.2740510566
 20
-209.8270099277
 10
621.6086418807
 20
-213.9324577406
 10
620.7569805128
 20
-218.094453588
 10
619.7219540121
 20
-222.298910166
 10
618.5070552987
 20
-226.5316071461
 10
617.1164042271
 20
-230.778217794
 10
615.554705439
 20
-235.0243713235
 10
613.8272378275
 20
-239.2557046068
 10
611.9398492676
 20
-243.4579001974
 10
609.8989276411
 20
-247.6167365176
 10
607.7113771287
 20
-251.718141089
 10
605.3845997706
 20
-255.7482376794
 10
602.9264691249
 20
-259.693388886
 10
600.3453012916
 20
-263.5402463236
 10
597.6498312053
 20
-267.275794729
 10
594.8491810243
 20
-270.887391502
 10
591.952825887
 20
-274.3628138513
 10
588.9705649357
 20
-277.6903089819
 10
585.9124910236
 20
-280.8586176668
 10
582.788951202
 20
-283.8570092246
 10
579.6105137931
 20
-286.6753491975
 10
576.3879348044
 20
-289.3040944053
 10
573.1321170987
 20
-291.734353018
 10
569.8540787842
 20
-293.9578967203
 10
566.564910409
 20
-295.9672097573
 10
563.2757420338
 20
-297.7554896922
 10
559.9977037193
 20
-299.3166884674
 10
556.7418860136
 20
-300.6455169632
 10
553.5193070249
 20
-301.7374822583
 10
550.340869616
 20
-302.588888005
 10
547.2173297943
 20
-303.1968587617
 10
544.1592558823
 20
-303.559327061
 10
541.176994931
 20
-303.6750771331
 10
538.2806397937
 20
-303.543715245
 10
535.4799896127
 20
-303.1656803427
 10
532.7845195263
 20
-302.5422554556
 10
530.2033516931
 20
-301.6755509639
 10
527.7452210474
 20
-300.5684969902
 10
526.5681623015
 20
-299.9278532127
  0
LWPOLYLINE
  5
EB
330
1F
100
AcDbEntity
  8
0
  6
Continuous
 62
     1
370
    25
100
AcDbPolyline
 90
       59
 70
   128
 43
0.0
 10
509.0141302885
 20
-82.4474333548
 10
510.9431177878
 20
-84.1395499933
 10
513.0856528319
 20
-86.3454827755
 10
515.0705586625
 20
-88.7661889477
 10
516.8924773616
 20
-91.3951462775
 10
518.5465040896
 20
-94.2252667903
 10
520.0281712807
 20
-97.2489211033
 10
521.3334960575
 20
-100.4579505969
 10
522.4589486217
 20
-103.8437176023
 10
523.4014996684
 20
-107.3970856342
 10
524.1586045816
 20
-111.1084802259
 10
524.7282297759
 20
-114.9678904531
 10
525.1088368914
 20
-118.9649153205
 10
525.2993933302
 20
-123.0887823941
 10
525.2993933302
 20
-127.3283698567
 10
525.1088368914
 20
-131.6722487115
 10
524.7282297759
 20
-136.1087132007
 10
524.1586045816
 20
-140.6257986783
 10
523.4014996684
 20
-145.2113279963
 10
522.4589486217
 20
-149.8529423027
 10
521.3334960575
 20
-154.5381291797
 10
520.0281712807
 20
-159.2542545813
 10
518.5465040896
 20
-163.9886054199
 10
516.8924773616
 20
-168.7284245438
 10
515.0705586625
 20
-173.4609244283
 10
513.0856528319
 20
-178.1733540919
 10
510.9431177878
 20
-182.8530051814
 10
508.6487223802
 20
-187.4872636798
 10
506.2086569275
 20
-192.0636433671
 10
503.6294963379
 20
-196.5697979849
 10
500.9181948416
 20
-200.9935790305
 10
498.0820622825
 20
-205.3230707364
 10
495.1287430453
 20
-209.546590068
 10
492.066197616
 20
-213.6527582054
 10
488.9026867769
 20
-217.6305035843
 10
485.6467320939
 20
-221.4691090401
 10
482.3071185509
 20
-225.1582163717
 10
478.8928418657
 20
-228.6878810896
 10
475.4131124418
 20
-232.0485944694
 10
471.8773079531
 20
-235.2312926735
 10
468.2949601728
 20
-238.2274008562
 10
464.675726656
 20
-241.028837344
 10
461.0293650568
 20
-243.6280467128
 10
457.3657051396
 20
-246.0180220293
 10
453.694622932
 20
-248.1923319401
 10
450.0260152054
 20
-250.1451049841
 10
446.3697724751
 20
-251.8710755988
 10
442.7357506828
 20
-253.3655943833
 10
439.1337453489
 20
-254.6246369367
 10
435.5734693463
 20
-255.6447984371
 10
432.0645189855
 20
-256.4233375559
 10
428.6163536
 20
-256.9581517404
 10
425.2382705209
 20
-257.2477977438
 10
421.9393761019
 20
-257.2914961858
 10
418.7285606937
 20
-257.0891338311
 10
415.6144828395
 20
-256.6412544626
 10
412.6055376648
 20
-255.9490588787
 10
409.7098331695
 20
-255.0144185787
 10
409.4379333131
 20
-254.9119617559
  0
ARC
  5
EC
330
1F
100
AcDbEntity
  8
0
  6
Continuous
 62
     1
370
    25
100
AcDbCircle
 10
534.0533392331
 20
-211.8754134644
 30
0.0
 40
139.3614756026684
100
AcDbArc
 50
140.6696371137
 51
159.3357415155
  0
LWPOLYLINE
  5
ED
330
1F
100
AcDbEntity
  8
0
  6
Continuous
 62
     1
370
    25
100
AcDbPolyline
 90
       48
 70
   128
 43
0.0
 10
519.5210485456
 20
-95.7025335507
 10
520.4082502434
 20
-97.5776658156
 10
521.7122315895
 20
-100.7834069416
 10
522.8365251153
 20
-104.1656985229
 10
523.7781120528
 20
-107.7154177633
 10
524.5344425177
 20
-111.4230023632
 10
525.1034829245
 20
-115.2784520448
 10
525.4836949133
 20
-119.2713772197
 10
525.6740616913
 20
-123.3910084972
 10
525.6740616913
 20
-127.6262445912
 10
525.4836949133
 20
-131.9656686722
 10
525.1034829245
 20
-136.3975772653
 10
524.5344425177
 20
-140.9100270159
 10
523.7781120528
 20
-145.4908521831
 10
522.8365251153
 20
-150.1277045613
 10
521.7122315895
 20
-154.808077817
 10
520.4082502434
 20
-159.5193637588
 10
518.9281003389
 20
-164.2488569028
 10
517.2757752899
 20
-168.9838061821
 10
515.4557215889
 20
-173.7114514465
 10
513.4728546121
 20
-178.4190447574
 10
511.3325164725
 20
-183.0938960113
 10
509.0404760201
 20
-187.7233972748
 10
506.6029130364
 20
-192.2950775363
 10
504.02640243
 20
-196.7966057465
 10
501.3178826256
 20
-201.2158486106
 10
498.4846608333
 20
-205.5408979654
 10
495.534373535
 20
-209.760081422
 10
492.47497068
 20
-213.8620384109
 10
489.3147051483
 20
-217.8357019295
 10
486.0620958714
 20
-221.6703624177
 10
482.7259067598
 20
-225.3556860073
 10
479.3151361656
 20
-228.8817327717
 10
475.8389773701
 20
-232.2389977874
 10
472.3068014616
 20
-235.418427102
 10
468.7281309938
 20
-238.411457276
 10
465.1126123266
 20
-241.2100130986
 10
461.4699932358
 20
-243.8065570159
 10
457.8100931139
 20
-246.1940880823
 10
454.1427786864
 20
-248.3661620628
 10
450.4779361056
 20
-250.3169257944
 10
446.8254457619
 20
-252.0411317268
 10
443.1951526487
 20
-253.5341185285
 10
439.5968457007
 20
-254.7918595164
 10
436.040223303
 20
-255.8109764836
 10
432.5348738637
 20
-256.5887204961
 10
429.0902488134
 20
-257.1229813958
 10
426.1756809692
 20
-257.3870737114
  0
LWPOLYLINE
  5
EE
330
1F
100
AcDbEntity
  8
0
  6
Continuous
 62
     1
370
    25
100
AcDbPolyline
 90
       44
 70
   128
 43
0.0
 10
548.0164722377
 20
-132.5552462893
 10
549.0595171763
 20
-134.5838180867
 10
550.2759700547
 20
-137.417454986
 10
551.3123294495
 20
-140.4307541167
 10
552.165081367
 20
-143.6135219044
 10
552.8313440166
 20
-146.9549861219
 10
553.3088625419
 20
-150.4438415162
 10
553.5960195575
 20
-154.0682836504
 10
553.691845686
 20
-157.8160473077
 10
553.5960195575
 20
-161.6744494579
 10
553.3088625419
 20
-165.6304360252
 10
552.8313440166
 20
-169.6706225734
 10
552.165081367
 20
-173.7813372722
 10
551.3123294495
 20
-177.9486714668
 10
550.2759700547
 20
-182.1585256853
 10
549.0595171763
 20
-186.3966491827
 10
547.6670801319
 20
-190.6487106611
 10
546.1033793686
 20
-194.900308917
 10
544.3736937791
 20
-199.1370747391
 10
542.4838870438
 20
-203.3446572219
 10
540.4403444102
 20
-207.5088302248
 10
538.249985864
 20
-211.6154969359
 10
535.9202239821
 20
-215.650762873
 10
533.4589402253
 20
-219.6009769457
 10
530.8744612303
 20
-223.4527725186
 10
528.1755351024
 20
-227.193108474
 10
525.3712892683
 20
-230.8093422124
 10
522.47121994
 20
-234.2892205257
 10
519.4851315281
 20
-237.6209875777
 10
516.4231353249
 20
-240.7933552454
 10
513.2955876014
 20
-243.7955996926
 10
510.1130724849
 20
-246.6175530026
 10
506.8863591538
 20
-249.2496704754
 10
503.6263649588
 20
-251.6830458336
 10
500.3441208498
 20
-253.9094433485
 10
497.0507328507
 20
-255.9213322478
 10
493.7573448515
 20
-257.7119081946
 10
490.4751007426
 20
-259.275109064
 10
487.2151065476
 20
-260.6056428862
 10
483.9883932165
 20
-261.6990093264
 10
480.8058781
 20
-262.5515097571
 10
477.6783303764
 20
-263.1602550494
 10
474.6163341733
 20
-263.5231929467
 10
472.2845571452
 20
-263.6347515473
  0
ARC
  5
EF
330
1F
100
AcDbEntity
  8
0
  6
Continuous
 62
     1
370
    25
100
AcDbCircle
 10
535.6669985994
 20
-212.8069622677
 30
0.0
 40
139.781917549051
100
AcDbArc
 50
142.733847963
 51
157.2715274989
  0
LWPOLYLINE
  5
F0
330
1F
100
AcDbEntity
  8
0
  6
Continuous
 62
     1
370
    25
100
AcDbPolyline
 90
       50
 70
   128
 43
0.0
 10
544.2009680914
 20
-126.952381446
 10
544.7602725762
 20
-127.5927558491
 10
546.4877401878
 20
-129.8295974821
 10
548.0494389758
 20
-132.272651971
 10
549.4400900475
 20
-134.913651068
 10
550.6549887608
 20
-137.7436558507
 10
551.6900152615
 20
-140.7530962676
 10
552.5416766294
 20
-143.93178483
 10
553.2070858053
 20
-147.2689675614
 10
553.6839932013
 20
-150.7533528975
 10
553.970781432
 20
-154.3731512304
 10
554.0664863882
 20
-158.1161121729
 10
553.970781432
 20
-161.969571706
 10
553.6839932013
 20
-165.920488682
 10
553.2070858053
 20
-169.9554995771
 10
552.5416766294
 20
-174.06094739
 10
551.6900152615
 20
-178.2229432374
 10
550.6549887608
 20
-182.4273998154
 10
549.4400900475
 20
-186.6600967954
 10
548.0494389758
 20
-190.9067074434
 10
546.4877401878
 20
-195.1528609729
 10
544.7602725762
 20
-199.3841942562
 10
542.8728840163
 20
-203.5863898468
 10
540.8319623898
 20
-207.745226167
 10
538.6444118774
 20
-211.8466307384
 10
536.3176345193
 20
-215.8767273288
 10
533.8595038736
 20
-219.8218785354
 10
531.2783360404
 20
-223.668735973
 10
528.582865954
 20
-227.4042843784
 10
525.782215773
 20
-231.0158811514
 10
522.8858606357
 20
-234.4913035007
 10
519.9035996844
 20
-237.8187986313
 10
516.8455257723
 20
-240.9871073162
 10
513.7219859507
 20
-243.985498874
 10
510.5435485418
 20
-246.8038388469
 10
507.3209695531
 20
-249.4325840547
 10
504.0651518474
 20
-251.8628426674
 10
500.7871135329
 20
-254.0863863697
 10
497.4979451577
 20
-256.0956994067
 10
494.2087767825
 20
-257.8839793416
 10
490.930738468
 20
-259.4451781168
 10
487.6749207623
 20
-260.7740066126
 10
484.4523417736
 20
-261.8659719077
 10
481.2739043647
 20
-262.7173776544
 10
478.1503645431
 20
-263.325348411
 10
475.092290631
 20
-263.6878167103
 10
472.1100296797
 20
-263.8035667825
 10
469.2136745424
 20
-263.6722048944
 10
466.4130243614
 20
-263.294169992
 10
465.5864588077
 20
-263.1314644017
  0
ENDSEC
  0
SECTION
  2
OBJECTS
  0
DICTIONARY
  5
C
330
0
100
AcDbDictionary
281
     1
  3
ACAD_GROUP
350
D
  3
ACAD_LAYOUT
350
1A
  3
ACAD_MLINESTYLE
350
17
  3
ACAD_PLOTSETTINGS
350
19
  3
ACAD_PLOTSTYLENAME
350
E
  3
ACAD_SCALELIST
350
47
  0
DICTIONARY
  5
D
102
{ACAD_REACTORS
330
C
102
}
330
C
100
AcDbDictionary
281
     1
  0
DICTIONARY
  5
1A
102
{ACAD_REACTORS
330
C
102
}
330
C
100
AcDbDictionary
281
     1
  3
Layout1
350
1E
  3
Layout2
350
26
  3
Model
350
22
  0
DICTIONARY
  5
17
102
{ACAD_REACTORS
330
C
102
}
330
C
100
AcDbDictionary
281
     1
  3
Standard
350
18
  0
DICTIONARY
  5
19
102
{ACAD_REACTORS
330
C
102
}
330
C
100
AcDbDictionary
281
     1
  0
ACDBDICTIONARYWDFLT
  5
E
102
{ACAD_REACTORS
330
C
102
}
330
C
100
AcDbDictionary
281
     1
  3
Normal
350
F
100
AcDbDictionaryWithDefault
340
F
  0
DICTIONARY
  5
47
102
{ACAD_REACTORS
330
C
102
}
330
C
100
AcDbDictionary
281
     1
  3
A0
350
48
  3
A1
350
49
  3
A2
350
4A
  3
A3
350
4B
  3
A4
350
4C
  3
A5
350
4D
  3
A6
350
4E
  3
A7
350
4F
  3
A8
350
50
  3
A9
350
51
  3
B0
350
52
  3
B1
350
53
  3
B2
350
54
  3
B3
350
55
  3
B4
350
56
  3
B5
350
57
  3
B6
350
58
  3
B7
350
59
  3
B8
350
5A
  3
B9
350
5B
  3
C0
350
5C
  3
C1
350
5D
  3
C2
350
5E
  3
C3
350
5F
  3
C4
350
60
  3
C5
350
61
  3
C6
350
62
  3
C7
350
63
  3
C8
350
64
  3
C9
350
65
  3
D0
350
66
  3
D1
350
67
  3
D2
350
68
  0
LAYOUT
  5
1E
102
{ACAD_REACTORS
330
1A
102
}
330
1A
100
AcDbPlotSettings
  1

  2
none_device
  4

  6

 40
0.0
 41
0.0
 42
0.0
 43
0.0
 44
0.0
 45
0.0
 46
0.0
 47
0.0
 48
0.0
 49
0.0
140
0.0
141
0.0
142
1.0
143
1.0
 70
   688
 72
     1
 73
     0
 74
     5
  7

 75
    16
147
1.0
148
0.0
149
0.0
100
AcDbLayout
  1
Layout1
 70
     1
 71
     1
 10
0.0
 20
0.0
 11
420.0
 21
297.0
 12
0.0
 22
0.0
 32
0.0
 14
1.0000000000E+20
 24
1.0000000000E+20
 34
1.0000000000E+20
 15
-1.0000000000E+20
 25
-1.0000000000E+20
 35
-1.0000000000E+20
146
0.0
 13
0.0
 23
0.0
 33
0.0
 16
1.0
 26
0.0
 36
0.0
 17
0.0
 27
1.0
 37
0.0
 76
     0
330
1B
  0
LAYOUT
  5
26
102
{ACAD_REACTORS
330
1A
102
}
330
1A
100
AcDbPlotSettings
  1

  2
none_device
  4

  6

 40
0.0
 41
0.0
 42
0.0
 43
0.0
 44
0.0
 45
0.0
 46
0.0
 47
0.0
 48
0.0
 49
0.0
140
0.0
141
0.0
142
1.0
143
1.0
 70
   688
 72
     1
 73
     0
 74
     5
  7

 75
    16
147
1.0
148
0.0
149
0.0
100
AcDbLayout
  1
Layout2
 70
     1
 71
     2
 10
0.0
 20
0.0
 11
0.0
 21
0.0
 12
0.0
 22
0.0
 32
0.0
 14
0.0
 24
0.0
 34
0.0
 15
0.0
 25
0.0
 35
0.0
146
0.0
 13
0.0
 23
0.0
 33
0.0
 16
1.0
 26
0.0
 36
0.0
 17
0.0
 27
1.0
 37
0.0
 76
     0
330
23
  0
LAYOUT
  5
22
102
{ACAD_REACTORS
330
1A
102
}
330
1A
100
AcDbPlotSettings
  1

  2
none_device
  4
Letter_(8.50_x_11.00_Inches)
  6

 40
6.35
 41
6.35
 42
6.35000508
 43
6.35000508
 44
215.9
 45
279.4
 46
0.0
 47
0.0
 48
0.0
 49
0.0
140
0.0
141
0.0
142
1.0
143
1.0
 70
  1712
 72
     1
 73
     0
 74
     0
  7

 75
     0
147
1.0
148
0.0
149
0.0
100
AcDbLayout
  1
Model
 70
     1
 71
     0
 10
0.0
 20
0.0
 11
279.4
 21
215.9
 12
0.0
 22
0.0
 32
0.0
 14
0.0
 24
0.0
 34
0.0
 15
279.4
 25
215.9
 35
0.0
146
0.0
 13
0.0
 23
0.0
 33
0.0
 16
1.0
 26
0.0
 36
0.0
 17
0.0
 27
1.0
 37
0.0
 76
     0
330
1F
331
29
  0
MLINESTYLE
  5
18
102
{ACAD_REACTORS
330
17
102
}
330
17
100
AcDbMlineStyle
  2
Standard
 70
     0
  3

 62
   256
 51
90.0
 52
90.0
 71
     2
 49
0.5
 62
   256
  6
BYLAYER
 49
-0.5
 62
   256
  6
BYLAYER
  0
ACDBPLACEHOLDER
  5
F
102
{ACAD_REACTORS
330
E
102
}
330
E
  0
SCALE
  5
48
102
{ACAD_REACTORS
330
47
102
}
330
47
100
AcDbScale
 70
     0
300
1:1
140
1.0
141
1.0
290
     1
  0
SCALE
  5
49
102
{ACAD_REACTORS
330
47
102
}
330
47
100
AcDbScale
 70
     0
300
1:2
140
1.0
141
2.0
290
     0
  0
SCALE
  5
4A
102
{ACAD_REACTORS
330
47
102
}
330
47
100
AcDbScale
 70
     0
300
1:4
140
1.0
141
4.0
290
     0
  0
SCALE
  5
4B
102
{ACAD_REACTORS
330
47
102
}
330
47
100
AcDbScale
 70
     0
300
1:5
140
1.0
141
5.0
290
     0
  0
SCALE
  5
4C
102
{ACAD_REACTORS
330
47
102
}
330
47
100
AcDbScale
 70
     0
300
1:8
140
1.0
141
8.0
290
     0
  0
SCALE
  5
4D
102
{ACAD_REACTORS
330
47
102
}
330
47
100
AcDbScale
 70
     0
300
1:10
140
1.0
141
10.0
290
     0
  0
SCALE
  5
4E
102
{ACAD_REACTORS
330
47
102
}
330
47
100
AcDbScale
 70
     0
300
1:16
140
1.0
141
16.0
290
     0
  0
SCALE
  5
4F
102
{ACAD_REACTORS
330
47
102
}
330
47
100
AcDbScale
 70
     0
300
1:20
140
1.0
141
20.0
290
     0
  0
SCALE
  5
50
102
{ACAD_REACTORS
330
47
102
}
330
47
100
AcDbScale
 70
     0
300
1:30
140
1.0
141
30.0
290
     0
  0
SCALE
  5
51
102
{ACAD_REACTORS
330
47
102
}
330
47
100
AcDbScale
 70
     0
300
1:40
140
1.0
141
40.0
290
     0
  0
SCALE
  5
52
102
{ACAD_REACTORS
330
47
102
}
330
47
100
AcDbScale
 70
     0
300
1:50
140
1.0
141
50.0
290
     0
  0
SCALE
  5
53
102
{ACAD_REACTORS
330
47
102
}
330
47
100
AcDbScale
 70
     0
300
1:100
140
1.0
141
100.0
290
     0
  0
SCALE
  5
54
102
{ACAD_REACTORS
330
47
102
}
330
47
100
AcDbScale
 70
     0
300
2:1
140
2.0
141
1.0
290
     0
  0
SCALE
  5
55
102
{ACAD_REACTORS
330
47
102
}
330
47
100
AcDbScale
 70
     0
300
4:1
140
4.0
141
1.0
290
     0
  0
SCALE
  5
56
102
{ACAD_REACTORS
330
47
102
}
330
47
100
AcDbScale
 70
     0
300
8:1
140
8.0
141
1.0
290
     0
  0
SCALE
  5
57
102
{ACAD_REACTORS
330
47
102
}
330
47
100
AcDbScale
 70
     0
300
10:1
140
10.0
141
1.0
290
     0
  0
SCALE
  5
58
102
{ACAD_REACTORS
330
47
102
}
330
47
100
AcDbScale
 70
     0
300
100:1
140
100.0
141
1.0
290
     0
  0
SCALE
  5
59
102
{ACAD_REACTORS
330
47
102
}
330
47
100
AcDbScale
 70
     0
300
1/128" = 1'-0"
140
0.0078125
141
12.0
290
     0
  0
SCALE
  5
5A
102
{ACAD_REACTORS
330
47
102
}
330
47
100
AcDbScale
 70
     0
300
1/64" = 1'-0"
140
0.015625
141
12.0
290
     0
  0
SCALE
  5
5B
102
{ACAD_REACTORS
330
47
102
}
330
47
100
AcDbScale
 70
     0
300
1/32" = 1'-0"
140
0.03125
141
12.0
290
     0
  0
SCALE
  5
5C
102
{ACAD_REACTORS
330
47
102
}
330
47
100
AcDbScale
 70
     0
300
1/16" = 1'-0"
140
0.0625
141
12.0
290
     0
  0
SCALE
  5
5D
102
{ACAD_REACTORS
330
47
102
}
330
47
100
AcDbScale
 70
     0
300
3/32" = 1'-0"
140
0.09375
141
12.0
290
     0
  0
SCALE
  5
5E
102
{ACAD_REACTORS
330
47
102
}
330
47
100
AcDbScale
 70
     0
300
1/8" = 1'-0"
140
0.125
141
12.0
290
     0
  0
SCALE
  5
5F
102
{ACAD_REACTORS
330
47
102
}
330
47
100
AcDbScale
 70
     0
300
3/16" = 1'-0"
140
0.1875
141
12.0
290
     0
  0
SCALE
  5
60
102
{ACAD_REACTORS
330
47
102
}
330
47
100
AcDbScale
 70
     0
300
1/4" = 1'-0"
140
0.25
141
12.0
290
     0
  0
SCALE
  5
61
102
{ACAD_REACTORS
330
47
102
}
330
47
100
AcDbScale
 70
     0
300
3/8" = 1'-0"
140
0.375
141
12.0
290
     0
  0
SCALE
  5
62
102
{ACAD_REACTORS
330
47
102
}
330
47
100
AcDbScale
 70
     0
300
1/2" = 1'-0"
140
0.5
141
12.0
290
     0
  0
SCALE
  5
63
102
{ACAD_REACTORS
330
47
102
}
330
47
100
AcDbScale
 70
     0
300
3/4" = 1'-0"
140
0.75
141
12.0
290
     0
  0
SCALE
  5
64
102
{ACAD_REACTORS
330
47
102
}
330
47
100
AcDbScale
 70
     0
300
1" = 1'-0"
140
1.0
141
12.0
290
     0
  0
SCALE
  5
65
102
{ACAD_REACTORS
330
47
102
}
330
47
100
AcDbScale
 70
     0
300
1-1/2" = 1'-0"
140
1.5
141
12.0
290
     0
  0
SCALE
  5
66
102
{ACAD_REACTORS
330
47
102
}
330
47
100
AcDbScale
 70
     0
300
3" = 1'-0"
140
3.0
141
12.0
290
     0
  0
SCALE
  5
67
102
{ACAD_REACTORS
330
47
102
}
330
47
100
AcDbScale
 70
     0
300
6" = 1'-0"
140
6.0
141
12.0
290
     0
  0
SCALE
  5
68
102
{ACAD_REACTORS
330
47
102
}
330
47
100
AcDbScale
 70
     0
300
1'-0" = 1'-0"
140
12.0
141
12.0
290
     0
  0
ENDSEC
  0
EOF
